  0
SECTION
  2
HEADER
  9
$ACADVER
  1
AC1015
  9
$ACADMAINTVER
 70
     6
  9
$DWGCODEPAGE
  3
ANSI_1254
  9
$INSBASE
 10
0.0
 20
0.0
 30
0.0
  9
$EXTMIN
 10
0.0
 20
0.0
 30
0.0
  9
$EXTMAX
 10
279.4
 20
215.9
 30
0.0
  9
$LIMMIN
 10
0.0
 20
0.0
  9
$LIMMAX
 10
279.4
 20
215.9
  9
$ORTHOMODE
 70
     0
  9
$REGENMODE
 70
     1
  9
$FILLMODE
 70
     1
  9
$QTEXTMODE
 70
     0
  9
$MIRRTEXT
 70
     1
  9
$LTSCALE
 40
1.0
  9
$ATTMODE
 70
     1
  9
$TEXTSIZE
 40
3.5
  9
$TRACEWID
 40
1.0
  9
$TEXTSTYLE
  7
Standard
  9
$CLAYER
  8
0
  9
$CELTYPE
  6
ByLayer
  9
$CECOLOR
 62
   256
  9
$CELTSCALE
 40
1.0
  9
$DISPSILH
 70
     0
  9
$DIMSCALE
 40
1.0
  9
$DIMASZ
 40
3.5
  9
$DIMEXO
 40
1.0
  9
$DIMDLI
 40
3.75
  9
$DIMRND
 40
0.0
  9
$DIMDLE
 40
0.0
  9
$DIMEXE
 40
1.0
  9
$DIMTP
 40
0.0
  9
$DIMTM
 40
0.0
  9
$DIMTXT
 40
3.5
  9
$DIMCEN
 40
2.5
  9
$DIMTSZ
 40
0.0
  9
$DIMTOL
 70
     0
  9
$DIMLIM
 70
     0
  9
$DIMTIH
 70
     1
  9
$DIMTOH
 70
     1
  9
$DIMSE1
 70
     0
  9
$DIMSE2
 70
     0
  9
$DIMTAD
 70
     1
  9
$DIMZIN
 70
     0
  9
$DIMBLK
  1

  9
$DIMASO
 70
     1
  9
$DIMSHO
 70
     1
  9
$DIMPOST
  1

  9
$DIMAPOST
  1

  9
$DIMALT
 70
     0
  9
$DIMALTD
 70
     3
  9
$DIMALTF
 40
0.0393700787
  9
$DIMLFAC
 40
1.0
  9
$DIMTOFL
 70
     1
  9
$DIMTVP
 40
0.0
  9
$DIMTIX
 70
     0
  9
$DIMSOXD
 70
     0
  9
$DIMSAH
 70
     0
  9
$DIMBLK1
  1

  9
$DIMBLK2
  1

  9
$DIMSTYLE
  2
ISO-25
  9
$DIMCLRD
 70
     0
  9
$DIMCLRE
 70
     0
  9
$DIMCLRT
 70
     0
  9
$DIMTFAC
 40
1.0
  9
$DIMGAP
 40
1.524
  9
$DIMJUST
 70
     0
  9
$DIMSD1
 70
     0
  9
$DIMSD2
 70
     0
  9
$DIMTOLJ
 70
     0
  9
$DIMTZIN
 70
     0
  9
$DIMALTZ
 70
     0
  9
$DIMALTTZ
 70
     0
  9
$DIMUPT
 70
     0
  9
$DIMDEC
 70
     2
  9
$DIMTDEC
 70
     2
  9
$DIMALTU
 70
     2
  9
$DIMALTTD
 70
     3
  9
$DIMTXSTY
  7
Standard
  9
$DIMAUNIT
 70
     0
  9
$DIMADEC
 70
     2
  9
$DIMALTRND
 40
0.0
  9
$DIMAZIN
 70
     0
  9
$DIMDSEP
 70
    44
  9
$DIMATFIT
 70
     3
  9
$DIMFRAC
 70
     0
  9
$DIMLDRBLK
  1

  9
$DIMLUNIT
 70
     2
  9
$DIMLWD
 70
    -2
  9
$DIMLWE
 70
    -2
  9
$DIMTMOVE
 70
     0
  9
$LUNITS
 70
     2
  9
$LUPREC
 70
     2
  9
$SKETCHINC
 40
1.0
  9
$FILLETRAD
 40
10.0
  9
$AUNITS
 70
     0
  9
$AUPREC
 70
     2
  9
$MENU
  1
.
  9
$ELEVATION
 40
0.0
  9
$PELEVATION
 40
0.0
  9
$THICKNESS
 40
0.0
  9
$LIMCHECK
 70
     0
  9
$CHAMFERA
 40
0.0
  9
$CHAMFERB
 40
0.0
  9
$CHAMFERC
 40
0.0
  9
$CHAMFERD
 40
0.0
  9
$SKPOLY
 70
     0
  9
$TDCREATE
 40
2458985.63632912
  9
$TDUCREATE
 40
2458985.51132912
  9
$TDUPDATE
 40
2458985.636329467
  9
$TDUUPDATE
 40
2458985.511329467
  9
$TDINDWG
 40
0.0000000116
  9
$TDUSRTIMER
 40
0.0000000116
  9
$USRTIMER
 70
     1
  9
$ANGBASE
 50
0.0
  9
$ANGDIR
 70
     0
  9
$PDMODE
 70
     0
  9
$PDSIZE
 40
-1.0
  9
$PLINEWID
 40
0.0
  9
$SPLFRAME
 70
     0
  9
$SPLINETYPE
 70
     6
  9
$SPLINESEGS
 70
     8
  9
$HANDSEED
  5
C0
  9
$SURFTAB1
 70
     6
  9
$SURFTAB2
 70
     6
  9
$SURFTYPE
 70
     6
  9
$SURFU
 70
     6
  9
$SURFV
 70
     6
  9
$UCSBASE
  2

  9
$UCSNAME
  2

  9
$UCSORG
 10
0.0
 20
0.0
 30
0.0
  9
$UCSXDIR
 10
1.0
 20
0.0
 30
0.0
  9
$UCSYDIR
 10
0.0
 20
1.0
 30
0.0
  9
$UCSORTHOREF
  2

  9
$UCSORTHOVIEW
 70
     0
  9
$UCSORGTOP
 10
0.0
 20
0.0
 30
0.0
  9
$UCSORGBOTTOM
 10
0.0
 20
0.0
 30
0.0
  9
$UCSORGLEFT
 10
0.0
 20
0.0
 30
0.0
  9
$UCSORGRIGHT
 10
0.0
 20
0.0
 30
0.0
  9
$UCSORGFRONT
 10
0.0
 20
0.0
 30
0.0
  9
$UCSORGBACK
 10
0.0
 20
0.0
 30
0.0
  9
$PUCSBASE
  2

  9
$PUCSNAME
  2

  9
$PUCSORG
 10
0.0
 20
0.0
 30
0.0
  9
$PUCSXDIR
 10
1.0
 20
0.0
 30
0.0
  9
$PUCSYDIR
 10
0.0
 20
1.0
 30
0.0
  9
$PUCSORTHOREF
  2

  9
$PUCSORTHOVIEW
 70
     0
  9
$PUCSORGTOP
 10
0.0
 20
0.0
 30
0.0
  9
$PUCSORGBOTTOM
 10
0.0
 20
0.0
 30
0.0
  9
$PUCSORGLEFT
 10
0.0
 20
0.0
 30
0.0
  9
$PUCSORGRIGHT
 10
0.0
 20
0.0
 30
0.0
  9
$PUCSORGFRONT
 10
0.0
 20
0.0
 30
0.0
  9
$PUCSORGBACK
 10
0.0
 20
0.0
 30
0.0
  9
$USERI1
 70
     0
  9
$USERI2
 70
     0
  9
$USERI3
 70
     0
  9
$USERI4
 70
     0
  9
$USERI5
 70
     0
  9
$USERR1
 40
0.0
  9
$USERR2
 40
0.0
  9
$USERR3
 40
0.0
  9
$USERR4
 40
0.0
  9
$USERR5
 40
0.0
  9
$WORLDVIEW
 70
     1
  9
$SHADEDGE
 70
     3
  9
$SHADEDIF
 70
    70
  9
$TILEMODE
 70
     1
  9
$MAXACTVP
 70
    64
  9
$PINSBASE
 10
0.0
 20
0.0
 30
0.0
  9
$PLIMCHECK
 70
     0
  9
$PEXTMIN
 10
1.0000000000E+20
 20
1.0000000000E+20
 30
1.0000000000E+20
  9
$PEXTMAX
 10
-1.0000000000E+20
 20
-1.0000000000E+20
 30
-1.0000000000E+20
  9
$PLIMMIN
 10
0.0
 20
0.0
  9
$PLIMMAX
 10
420.0
 20
297.0
  9
$UNITMODE
 70
     0
  9
$VISRETAIN
 70
     1
  9
$PLINEGEN
 70
     0
  9
$PSLTSCALE
 70
     1
  9
$TREEDEPTH
 70
  3020
  9
$CMLSTYLE
  2
Standard
  9
$CMLJUST
 70
     0
  9
$CMLSCALE
 40
20.0
  9
$PROXYGRAPHICS
 70
     1
  9
$MEASUREMENT
 70
     1
  9
$CELWEIGHT
370
    -1
  9
$ENDCAPS
280
     0
  9
$JOINSTYLE
280
     0
  9
$LWDISPLAY
290
     1
  9
$INSUNITS
 70
     4
  9
$HYPERLINKBASE
  1

  9
$STYLESHEET
  1

  9
$XEDIT
290
     1
  9
$CEPSNTYPE
380
     0
  9
$PSTYLEMODE
290
     1
  9
$FINGERPRINTGUID
  2
{76bf6534-ee64-40b0-821e-96431fdc5155}
  9
$VERSIONGUID
  2
{FAEB1C32-E019-11D5-929B-00C0DF256EC4}
  9
$EXTNAMES
290
     1
  9
$PSVPSCALE
 40
0.0
  9
$OLESTARTUP
290
     0
  0
ENDSEC
  0
SECTION
  2
CLASSES
  0
CLASS
  1
ACDBDICTIONARYWDFLT
  2
AcDbDictionaryWithDefault
  3
ObjectDBX Classes
 90
        0
280
     0
281
     0
  0
CLASS
  1
VISUALSTYLE
  2
AcDbVisualStyle
  3
ObjectDBX Classes
 90
     4095
280
     0
281
     0
  0
CLASS
  1
MATERIAL
  2
AcDbMaterial
  3
ObjectDBX Classes
 90
     1153
280
     0
281
     0
  0
CLASS
  1
SCALE
  2
AcDbScale
  3
ObjectDBX Classes
 90
     1153
280
     0
281
     0
  0
CLASS
  1
TABLESTYLE
  2
AcDbTableStyle
  3
ObjectDBX Classes
 90
     4095
280
     0
281
     0
  0
CLASS
  1
MLEADERSTYLE
  2
AcDbMLeaderStyle
  3
ACDB_MLEADERSTYLE_CLASS
 90
     4095
280
     0
281
     0
  0
CLASS
  1
SUN
  2
AcDbSun
  3
SCENEOE
 90
     1153
280
     0
281
     0
  0
CLASS
  1
ACDBPLACEHOLDER
  2
AcDbPlaceHolder
  3
ObjectDBX Classes
 90
        0
280
     0
281
     0
  0
CLASS
  1
LAYOUT
  2
AcDbLayout
  3
ObjectDBX Classes
 90
        0
280
     0
281
     0
  0
ENDSEC
  0
SECTION
  2
TABLES
  0
TABLE
  2
VPORT
  5
8
330
0
100
AcDbSymbolTable
 70
     1
  0
VPORT
  5
29
330
8
100
AcDbSymbolTableRecord
100
AcDbViewportTableRecord
  2
*Active
 70
     0
 10
0.0
 20
0.0
 11
1.0
 21
1.0
 12
139.7
 22
107.95
 13
0.0
 23
0.0
 14
10.0
 24
10.0
 15
10.0
 25
10.0
 16
0.0
 26
0.0
 36
1.0
 17
0.0
 27
0.0
 37
0.0
 40
215.9
 41
1.2941176471
 42
50.0
 43
0.0
 44
0.0
 50
0.0
 51
0.0
 71
     0
 72
  2000
 73
     1
 74
     3
 75
     0
 76
     0
 77
     0
 78
     0
281
     0
 65
     1
110
0.0
120
0.0
130
0.0
111
1.0
121
0.0
131
0.0
112
0.0
122
1.0
132
0.0
 79
     0
146
0.0
  0
ENDTAB
  0
TABLE
  2
LTYPE
  5
5
330
0
100
AcDbSymbolTable
 70
     6
  0
LTYPE
  5
14
330
5
100
AcDbSymbolTableRecord
100
AcDbLinetypeTableRecord
  2
ByBlock
 70
     0
  3

 72
    65
 73
     0
 40
0.0
  0
LTYPE
  5
15
330
5
100
AcDbSymbolTableRecord
100
AcDbLinetypeTableRecord
  2
ByLayer
 70
     0
  3

 72
    65
 73
     0
 40
0.0
  0
LTYPE
  5
16
330
5
100
AcDbSymbolTableRecord
100
AcDbLinetypeTableRecord
  2
Continuous
 70
     0
  3
Solid line
 72
    65
 73
     0
 40
0.0
  0
LTYPE
  5
6E
330
5
100
AcDbSymbolTableRecord
100
AcDbLinetypeTableRecord
  2
HIDDEN
 70
     0
  3
Hidden __ __ __ __ __ __ __ __ __ __ __ __ __ __
 72
    65
 73
     2
 40
1.905
 49
1.27
 74
     0
 49
-0.635
 74
     0
  0
LTYPE
  5
6F
330
5
100
AcDbSymbolTableRecord
100
AcDbLinetypeTableRecord
  2
PHANTOM
 70
     0
  3
Phantom ______  __  __  ______  __  __  ______
 72
    65
 73
     6
 40
12.7
 49
6.35
 74
     0
 49
-1.27
 74
     0
 49
1.27
 74
     0
 49
-1.27
 74
     0
 49
1.27
 74
     0
 49
-1.27
 74
     0
  0
LTYPE
  5
70
330
5
100
AcDbSymbolTableRecord
100
AcDbLinetypeTableRecord
  2
CENTER
 70
     0
  3
Center ____ _ ____ _ ____ _ ____ _ ____ _ ____
 72
    65
 73
     4
 40
10.16
 49
6.35
 74
     0
 49
-1.27
 74
     0
 49
1.27
 74
     0
 49
-1.27
 74
     0
  0
LTYPE
  5
71
330
5
100
AcDbSymbolTableRecord
100
AcDbLinetypeTableRecord
  2
CENTERX2
 70
     0
  3
Center (2x) ________  __  ________  __  _____
 72
    65
 73
     4
 40
20.32
 49
12.7
 74
     0
 49
-2.54
 74
     0
 49
2.54
 74
     0
 49
-2.54
 74
     0
  0
LTYPE
  5
72
330
5
100
AcDbSymbolTableRecord
100
AcDbLinetypeTableRecord
  2
DOT2
 70
     0
  3
Dot (.5x) ........................................
 72
    65
 73
     2
 40
0.635
 49
0.0
 74
     0
 49
-0.635
 74
     0
  0
ENDTAB
  0
TABLE
  2
LAYER
  5
2
330
0
100
AcDbSymbolTable
 70
    17
  0
LAYER
  5
10
330
2
100
AcDbSymbolTableRecord
100
AcDbLayerTableRecord
  2
0
 70
     0
 62
     7
  6
Continuous
370
    -3
390
F
  0
LAYER
  5
73
330
2
100
AcDbSymbolTableRecord
100
AcDbLayerTableRecord
  2
FORMAT
 70
     0
 62
     7
  6
Continuous
370
    -3
390
F
  0
LAYER
  5
74
330
2
100
AcDbSymbolTableRecord
100
AcDbLayerTableRecord
  2
YARDIMCI_GEOMETRI
 70
     0
 62
    -6
  6
Continuous
290
     0
370
    -3
390
F
  0
LAYER
  5
75
330
2
100
AcDbSymbolTableRecord
100
AcDbLayerTableRecord
  2
SAYFA_CERCEVESI
 70
     0
 62
     7
  6
Continuous
370
    25
390
F
  0
LAYER
  5
76
330
2
100
AcDbSymbolTableRecord
100
AcDbLayerTableRecord
  2
ANTET
 70
     0
 62
     7
  6
Continuous
370
    -3
390
F
  0
LAYER
  5
77
330
2
100
AcDbSymbolTableRecord
100
AcDbLayerTableRecord
  2
OLCU
 70
     0
 62
   150
  6
Continuous
370
    -3
390
F
  0
LAYER
  5
78
330
2
100
AcDbSymbolTableRecord
100
AcDbLayerTableRecord
  2
METIN
 70
     0
 62
    96
  6
Continuous
370
    -3
390
F
  0
LAYER
  5
79
330
2
100
AcDbSymbolTableRecord
100
AcDbLayerTableRecord
  2
BALON
 70
     0
 62
     5
  6
Continuous
370
    -3
390
F
  0
LAYER
  5
7A
330
2
100
AcDbSymbolTableRecord
100
AcDbLayerTableRecord
  2
VURGU
 70
     0
 62
     7
  6
Continuous
370
    -3
390
F
  0
LAYER
  5
7B
330
2
100
AcDbSymbolTableRecord
100
AcDbLayerTableRecord
  2
SILIK
 70
     0
 62
     7
  6
Continuous
370
    -3
390
F
  0
LAYER
  5
7C
330
2
100
AcDbSymbolTableRecord
100
AcDbLayerTableRecord
  2
MODEL
 70
     0
 62
     7
  6
Continuous
370
    -3
390
F
  0
LAYER
  5
7D
330
2
100
AcDbSymbolTableRecord
100
AcDbLayerTableRecord
  2
DETAYLANDıRMA
 70
     0
 62
   190
  6
Continuous
370
    -3
390
F
  0
LAYER
  5
7E
330
2
100
AcDbSymbolTableRecord
100
AcDbLayerTableRecord
  2
TOLERANS
 70
     0
 62
   230
  6
Continuous
370
    -3
390
F
  0
LAYER
  5
7F
330
2
100
AcDbSymbolTableRecord
100
AcDbLayerTableRecord
  2
MERKEZ_CIZGILERI
 70
     0
 62
    30
  6
Continuous
370
    -3
390
F
  0
LAYER
  5
80
330
2
100
AcDbSymbolTableRecord
100
AcDbLayerTableRecord
  2
KESIT-DETAY_CIZGILERI
 70
     0
 62
     7
  6
Continuous
370
    -3
390
F
  0
LAYER
  5
81
330
2
100
AcDbSymbolTableRecord
100
AcDbLayerTableRecord
  2
\U+041E\U+0421\U+0415\U+0412\U+042B\U+0415
 70
     0
 62
     7
  6
Continuous
370
    -3
390
F
  0
LAYER
  5
82
330
2
100
AcDbSymbolTableRecord
100
AcDbLayerTableRecord
  2
\U+0412\U+041E\U+0414\U+042F\U+041D\U+042B\U+0415_\U+0417\U+041D\U+0410\U+041A\U+0418
 70
     0
 62
    11
  6
Continuous
370
    -3
390
F
  0
ENDTAB
  0
TABLE
  2
STYLE
  5
3
330
0
100
AcDbSymbolTable
 70
     1
  0
STYLE
  5
11
330
3
100
AcDbSymbolTableRecord
100
AcDbTextStyleTableRecord
  2
Standard
 70
     0
 40
0.0
 41
1.0
 50
0.0
 71
     0
 42
3.5
  3
txt
  4

  0
ENDTAB
  0
TABLE
  2
VIEW
  5
6
330
0
100
AcDbSymbolTable
 70
     0
  0
ENDTAB
  0
TABLE
  2
UCS
  5
7
330
0
100
AcDbSymbolTable
 70
     0
  0
ENDTAB
  0
TABLE
  2
APPID
  5
9
330
0
100
AcDbSymbolTable
 70
     1
  0
APPID
  5
12
330
9
100
AcDbSymbolTableRecord
100
AcDbRegAppTableRecord
  2
ACAD
 70
     0
  0
ENDTAB
  0
TABLE
  2
DIMSTYLE
  5
A
330
0
100
AcDbSymbolTable
 70
     1
100
AcDbDimStyleTable
  0
DIMSTYLE
105
27
330
A
100
AcDbSymbolTableRecord
100
AcDbDimStyleTableRecord
  2
ISO-25
 70
     0
 41
2.5
 42
0.625
 43
3.75
 44
1.25
 73
     0
 74
     0
 77
     1
 78
     8
140
2.5
141
2.5
143
0.0393700787
147
0.625
171
     3
172
     1
178
     0
271
     2
272
     2
274
     3
278
    44
283
     0
284
     8
340
11
  0
ENDTAB
  0
TABLE
  2
BLOCK_RECORD
  5
1
330
0
100
AcDbSymbolTable
 70
     1
  0
BLOCK_RECORD
  5
1F
330
1
100
AcDbSymbolTableRecord
100
AcDbBlockTableRecord
  2
*Model_Space
340
22
  0
BLOCK_RECORD
  5
1B
330
1
100
AcDbSymbolTableRecord
100
AcDbBlockTableRecord
  2
*Paper_Space
340
1E
  0
BLOCK_RECORD
  5
23
330
1
100
AcDbSymbolTableRecord
100
AcDbBlockTableRecord
  2
*Paper_Space0
340
26
  0
ENDTAB
  0
ENDSEC
  0
SECTION
  2
BLOCKS
  0
BLOCK
  5
20
330
1F
100
AcDbEntity
  8
0
100
AcDbBlockBegin
  2
*Model_Space
 70
     0
 10
0.0
 20
0.0
 30
0.0
  3
*Model_Space
  1

  0
ENDBLK
  5
21
330
1F
100
AcDbEntity
  8
0
100
AcDbBlockEnd
  0
BLOCK
  5
1C
330
1B
100
AcDbEntity
 67
     1
  8
0
100
AcDbBlockBegin
  2
*Paper_Space
 70
     0
 10
0.0
 20
0.0
 30
0.0
  3
*Paper_Space
  1

  0
ENDBLK
  5
1D
330
1B
100
AcDbEntity
 67
     1
  8
0
100
AcDbBlockEnd
  0
BLOCK
  5
24
330
23
100
AcDbEntity
  8
0
100
AcDbBlockBegin
  2
*Paper_Space0
 70
     0
 10
0.0
 20
0.0
 30
0.0
  3
*Paper_Space0
  1

  0
ENDBLK
  5
25
330
23
100
AcDbEntity
  8
0
100
AcDbBlockEnd
  0
ENDSEC
  0
SECTION
  2
ENTITIES
  0
CIRCLE
  5
83
330
1F
100
AcDbEntity
  8
0
  6
Continuous
 62
     7
370
    25
100
AcDbCircle
 10
135.9944086538
 20
118.27271875
 30
0.0
 40
280.0
  0
CIRCLE
  5
84
330
1F
100
AcDbEntity
  8
0
  6
Continuous
 62
     7
370
    25
100
AcDbCircle
 10
135.9944086538
 20
118.27271875
 30
0.0
 40
229.2
  0
CIRCLE
  5
85
330
1F
100
AcDbEntity
  8
0
  6
Continuous
 62
     7
370
    25
100
AcDbCircle
 10
135.9944086538
 20
118.27271875
 30
0.0
 40
290.0
  0
CIRCLE
  5
86
330
1F
100
AcDbEntity
  8
0
  6
Continuous
 62
     7
370
    25
100
AcDbCircle
 10
135.9944086538
 20
118.27271875
 30
0.0
 40
327.0
  0
LINE
  5
87
330
1F
100
AcDbEntity
  8
0
  6
Continuous
 62
     7
370
    25
100
AcDbLine
 10
462.9944086538
 20
674.880165059
 30
0.0
 11
462.9944086538
 21
754.880165059
 31
0.0
  0
LINE
  5
88
330
1F
100
AcDbEntity
  8
0
  6
Continuous
 62
     7
370
    25
100
AcDbLine
 10
-191.0055913462
 20
754.880165059
 30
0.0
 11
-191.0055913462
 21
674.880165059
 31
0.0
  0
LINE
  5
89
330
1F
100
AcDbEntity
  8
0
  6
Continuous
 62
     7
370
    25
100
AcDbLine
 10
425.9944086538
 20
754.880165059
 30
0.0
 11
415.9944086538
 21
849.880165059
 31
0.0
  0
LINE
  5
8A
330
1F
100
AcDbEntity
  8
0
  6
Continuous
 62
     7
370
    25
100
AcDbLine
 10
-144.0055913462
 20
849.880165059
 30
0.0
 11
-154.0055913462
 21
754.880165059
 31
0.0
  0
LINE
  5
8B
330
1F
100
AcDbEntity
  8
0
  6
Continuous
 62
     7
370
    25
100
AcDbLine
 10
415.9944086538
 20
849.880165059
 30
0.0
 11
415.9944086538
 21
1097.880165059
 31
0.0
  0
LINE
  5
8C
330
1F
100
AcDbEntity
  8
0
  6
Continuous
 62
     7
370
    25
100
AcDbLine
 10
-144.0055913462
 20
1097.880165059
 30
0.0
 11
-144.0055913462
 21
849.880165059
 31
0.0
  0
LINE
  5
8D
330
1F
100
AcDbEntity
  8
0
  6
Continuous
 62
     7
370
    25
100
AcDbLine
 10
462.9944086538
 20
674.880165059
 30
0.0
 11
-191.0055913462
 21
674.880165059
 31
0.0
  0
LINE
  5
8E
330
1F
100
AcDbEntity
  8
0
  6
Continuous
 62
     7
370
    25
100
AcDbLine
 10
462.9944086538
 20
754.880165059
 30
0.0
 11
-191.0055913462
 21
754.880165059
 31
0.0
  0
LINE
  5
8F
330
1F
100
AcDbEntity
  8
0
  6
Continuous
 62
     7
370
    25
100
AcDbLine
 10
415.9944086538
 20
849.880165059
 30
0.0
 11
-144.0055913462
 21
849.880165059
 31
0.0
  0
LINE
  5
90
330
1F
100
AcDbEntity
  8
0
  6
Continuous
 62
     7
370
    25
100
AcDbLine
 10
415.9944086538
 20
1097.880165059
 30
0.0
 11
-144.0055913462
 21
1097.880165059
 31
0.0
  0
LINE
  5
91
330
1F
100
AcDbEntity
  8
0
  6
Continuous
 62
     7
370
    25
100
AcDbLine
 10
-685.8088971292
 20
445.27271875
 30
0.0
 11
-765.8088971292
 21
445.27271875
 31
0.0
  0
LINE
  5
92
330
1F
100
AcDbEntity
  8
0
  6
Continuous
 62
     7
370
    25
100
AcDbLine
 10
-765.8088971292
 20
-208.72728125
 30
0.0
 11
-685.8088971292
 21
-208.72728125
 31
0.0
  0
LINE
  5
93
330
1F
100
AcDbEntity
  8
0
  6
Continuous
 62
     7
370
    25
100
AcDbLine
 10
-765.8088971292
 20
408.27271875
 30
0.0
 11
-860.8088971292
 21
398.27271875
 31
0.0
  0
LINE
  5
94
330
1F
100
AcDbEntity
  8
0
  6
Continuous
 62
     7
370
    25
100
AcDbLine
 10
-860.8088971292
 20
-161.72728125
 30
0.0
 11
-765.8088971292
 21
-171.72728125
 31
0.0
  0
LINE
  5
95
330
1F
100
AcDbEntity
  8
0
  6
Continuous
 62
     7
370
    25
100
AcDbLine
 10
-860.8088971292
 20
398.27271875
 30
0.0
 11
-1108.8088971292
 21
398.27271875
 31
0.0
  0
LINE
  5
96
330
1F
100
AcDbEntity
  8
0
  6
Continuous
 62
     7
370
    25
100
AcDbLine
 10
-1108.8088971292
 20
-161.72728125
 30
0.0
 11
-860.8088971292
 21
-161.72728125
 31
0.0
  0
LINE
  5
97
330
1F
100
AcDbEntity
  8
0
  6
Continuous
 62
     7
370
    25
100
AcDbLine
 10
-685.8088971292
 20
445.27271875
 30
0.0
 11
-685.8088971292
 21
-208.72728125
 31
0.0
  0
LINE
  5
98
330
1F
100
AcDbEntity
  8
0
  6
Continuous
 62
     7
370
    25
100
AcDbLine
 10
-765.8088971292
 20
445.27271875
 30
0.0
 11
-765.8088971292
 21
-208.72728125
 31
0.0
  0
LINE
  5
99
330
1F
100
AcDbEntity
  8
0
  6
Continuous
 62
     7
370
    25
100
AcDbLine
 10
-860.8088971292
 20
398.27271875
 30
0.0
 11
-860.8088971292
 21
-161.72728125
 31
0.0
  0
LINE
  5
9A
330
1F
100
AcDbEntity
  8
0
  6
Continuous
 62
     7
370
    25
100
AcDbLine
 10
-1108.8088971292
 20
398.27271875
 30
0.0
 11
-1108.8088971292
 21
-161.72728125
 31
0.0
  0
LINE
  5
9B
330
1F
100
AcDbEntity
  8
0
  6
Continuous
 62
     7
370
    25
100
AcDbLine
 10
-191.0055913462
 20
-536.8089434923
 30
0.0
 11
-191.0055913462
 21
-616.8089434923
 31
0.0
  0
LINE
  5
9C
330
1F
100
AcDbEntity
  8
0
  6
Continuous
 62
     7
370
    25
100
AcDbLine
 10
462.9944086538
 20
-616.8089434923
 30
0.0
 11
462.9944086538
 21
-536.8089434923
 31
0.0
  0
LINE
  5
9D
330
1F
100
AcDbEntity
  8
0
  6
Continuous
 62
     7
370
    25
100
AcDbLine
 10
-154.0055913462
 20
-616.8089434923
 30
0.0
 11
-144.0055913462
 21
-711.8089434923
 31
0.0
  0
LINE
  5
9E
330
1F
100
AcDbEntity
  8
0
  6
Continuous
 62
     7
370
    25
100
AcDbLine
 10
415.9944086538
 20
-711.8089434923
 30
0.0
 11
425.9944086538
 21
-616.8089434923
 31
0.0
  0
LINE
  5
9F
330
1F
100
AcDbEntity
  8
0
  6
Continuous
 62
     7
370
    25
100
AcDbLine
 10
-144.0055913462
 20
-711.8089434923
 30
0.0
 11
-144.0055913462
 21
-959.8089434923
 31
0.0
  0
LINE
  5
A0
330
1F
100
AcDbEntity
  8
0
  6
Continuous
 62
     7
370
    25
100
AcDbLine
 10
415.9944086538
 20
-959.8089434923
 30
0.0
 11
415.9944086538
 21
-711.8089434923
 31
0.0
  0
LINE
  5
A1
330
1F
100
AcDbEntity
  8
0
  6
Continuous
 62
     7
370
    25
100
AcDbLine
 10
-191.0055913462
 20
-536.8089434923
 30
0.0
 11
462.9944086538
 21
-536.8089434923
 31
0.0
  0
LINE
  5
A2
330
1F
100
AcDbEntity
  8
0
  6
Continuous
 62
     7
370
    25
100
AcDbLine
 10
-191.0055913462
 20
-616.8089434923
 30
0.0
 11
462.9944086538
 21
-616.8089434923
 31
0.0
  0
LINE
  5
A3
330
1F
100
AcDbEntity
  8
0
  6
Continuous
 62
     7
370
    25
100
AcDbLine
 10
-144.0055913462
 20
-711.8089434923
 30
0.0
 11
415.9944086538
 21
-711.8089434923
 31
0.0
  0
LINE
  5
A4
330
1F
100
AcDbEntity
  8
0
  6
Continuous
 62
     7
370
    25
100
AcDbLine
 10
-144.0055913462
 20
-959.8089434923
 30
0.0
 11
415.9944086538
 21
-959.8089434923
 31
0.0
  0
LINE
  5
A5
330
1F
100
AcDbEntity
  8
0
  6
Continuous
 62
     7
370
    25
100
AcDbLine
 10
1013.2795388085
 20
-208.72728125
 30
0.0
 11
1093.2795388085
 21
-208.72728125
 31
0.0
  0
LINE
  5
A6
330
1F
100
AcDbEntity
  8
0
  6
Continuous
 62
     7
370
    25
100
AcDbLine
 10
1093.2795388085
 20
445.27271875
 30
0.0
 11
1013.2795388085
 21
445.27271875
 31
0.0
  0
LINE
  5
A7
330
1F
100
AcDbEntity
  8
0
  6
Continuous
 62
     7
370
    25
100
AcDbLine
 10
1093.2795388085
 20
-171.72728125
 30
0.0
 11
1188.2795388085
 21
-161.72728125
 31
0.0
  0
LINE
  5
A8
330
1F
100
AcDbEntity
  8
0
  6
Continuous
 62
     7
370
    25
100
AcDbLine
 10
1188.2795388085
 20
398.27271875
 30
0.0
 11
1093.2795388085
 21
408.27271875
 31
0.0
  0
LINE
  5
A9
330
1F
100
AcDbEntity
  8
0
  6
Continuous
 62
     7
370
    25
100
AcDbLine
 10
1188.2795388085
 20
-161.72728125
 30
0.0
 11
1436.2795388085
 21
-161.72728125
 31
0.0
  0
LINE
  5
AA
330
1F
100
AcDbEntity
  8
0
  6
Continuous
 62
     7
370
    25
100
AcDbLine
 10
1436.2795388085
 20
398.27271875
 30
0.0
 11
1188.2795388085
 21
398.27271875
 31
0.0
  0
LINE
  5
AB
330
1F
100
AcDbEntity
  8
0
  6
Continuous
 62
     7
370
    25
100
AcDbLine
 10
1013.2795388085
 20
118.27271875
 30
0.0
 11
1013.2795388085
 21
445.27271875
 31
0.0
  0
LINE
  5
AC
330
1F
100
AcDbEntity
  8
0
  6
Continuous
 62
     7
370
    25
100
AcDbLine
 10
1013.2795388085
 20
-208.72728125
 30
0.0
 11
1013.2795388085
 21
118.27271875
 31
0.0
  0
LINE
  5
AD
330
1F
100
AcDbEntity
  8
0
  6
Continuous
 62
     7
370
    25
100
AcDbLine
 10
1093.2795388085
 20
118.27271875
 30
0.0
 11
1093.2795388085
 21
445.27271875
 31
0.0
  0
LINE
  5
AE
330
1F
100
AcDbEntity
  8
0
  6
Continuous
 62
     7
370
    25
100
AcDbLine
 10
1093.2795388085
 20
-208.72728125
 30
0.0
 11
1093.2795388085
 21
118.27271875
 31
0.0
  0
LINE
  5
AF
330
1F
100
AcDbEntity
  8
0
  6
Continuous
 62
     7
370
    25
100
AcDbLine
 10
1188.2795388085
 20
118.27271875
 30
0.0
 11
1188.2795388085
 21
398.27271875
 31
0.0
  0
LINE
  5
B0
330
1F
100
AcDbEntity
  8
0
  6
Continuous
 62
     7
370
    25
100
AcDbLine
 10
1188.2795388085
 20
-161.72728125
 30
0.0
 11
1188.2795388085
 21
118.27271875
 31
0.0
  0
LINE
  5
B1
330
1F
100
AcDbEntity
  8
0
  6
Continuous
 62
     7
370
    25
100
AcDbLine
 10
1436.2795388085
 20
118.27271875
 30
0.0
 11
1436.2795388085
 21
398.27271875
 31
0.0
  0
LINE
  5
B2
330
1F
100
AcDbEntity
  8
0
  6
Continuous
 62
     7
370
    25
100
AcDbLine
 10
1436.2795388085
 20
-161.72728125
 30
0.0
 11
1436.2795388085
 21
118.27271875
 31
0.0
  0
LINE
  5
B3
330
1F
100
AcDbEntity
  8
0
  6
Continuous
 62
     7
370
    25
100
AcDbLine
 10
1196.0294795137
 20
-432.5728624645
 30
0.0
 11
1020.6669977794
 21
-331.3382565985
 31
0.0
  0
LINE
  5
B4
330
1F
100
AcDbEntity
  8
0
  6
Continuous
 62
     7
370
    25
100
AcDbLine
 10
740.6897526413
 20
-816.3256195317
 30
0.0
 11
916.0522343756
 21
-917.5602253977
 31
0.0
  0
LINE
  5
B5
330
1F
100
AcDbEntity
  8
0
  6
Continuous
 62
     7
370
    25
100
AcDbLine
 10
1257.0075281402
 20
-457.1570611527
 30
0.0
 11
1190.8111333643
 21
-429.5603753551
 31
0.0
  0
LINE
  5
B6
330
1F
100
AcDbEntity
  8
0
  6
Continuous
 62
     7
370
    25
100
AcDbLine
 10
910.8338882262
 20
-914.5477382882
 30
0.0
 11
967.8356010462
 21
-958.071806158
 31
0.0
  0
LINE
  5
B7
330
1F
100
AcDbEntity
  8
0
  6
Continuous
 62
     7
370
    25
100
AcDbLine
 10
1343.2712564383
 20
-463.3042757171
 30
0.0
 11
1286.7027139433
 21
-430.6479512442
 31
0.0
  0
LINE
  5
B8
330
1F
100
AcDbEntity
  8
0
  6
Continuous
 62
     7
370
    25
100
AcDbLine
 10
959.7292883713
 20
-997.0439072412
 30
0.0
 11
1016.2978308663
 21
-1029.7002317141
 31
0.0
  0
LWPOLYLINE
  5
B9
330
1F
100
AcDbEntity
  8
0
  6
Continuous
 62
     7
370
    25
100
AcDbPolyline
 90
       90
 70
   128
 43
0.0
 10
1196.0294795137
 20
-432.5728624645
 10
1199.1122414646
 20
-434.432655467
 10
1203.8793630414
 20
-437.6437754066
 10
1208.4602093645
 20
-441.1540460045
 10
1212.8490086068
 20
-444.9590443499
 10
1217.0402309187
 20
-449.0539761774
 10
1221.0285953959
 20
-453.4336819078
 10
1224.8090767333
 20
-458.0926431495
 10
1228.3769115568
 20
-463.0249896509
 10
1231.7276044249
 20
-468.2245066979
 10
1234.8569334933
 20
-473.6846429432
 10
1237.7609558341
 20
-479.398518662
 10
1240.4360124041
 20
-485.3589344196
 10
1242.8787326547
 20
-491.5583801433
 10
1245.0860387794
 20
-497.9890445843
 10
1247.0551495913
 20
-504.6428251605
 10
1248.7835840277
 20
-511.5113381652
 10
1250.2691642758
 20
-518.5859293308
 10
1251.5100185174
 20
-525.8576847328
 10
1252.5045832867
 20
-533.3174420218
 10
1253.2516054405
 20
-540.9558019671
 10
1253.7501437374
 20
-548.7631403008
 10
1253.9995700234
 20
-556.7296198431
 10
1253.9995700234
 20
-564.8452028979
 10
1253.7501437374
 20
-573.0996639001
 10
1253.2516054405
 20
-581.4826022993
 10
1252.5045832867
 20
-589.9834556648
 10
1251.5100185174
 20
-598.5915129941
 10
1250.2691642758
 20
-607.2959282085
 10
1248.7835840277
 20
-616.0857338192
 10
1247.0551495913
 20
-624.9498547465
 10
1245.0860387794
 20
-633.8771222735
 10
1242.8787326547
 20
-642.8562881198
 10
1240.4360124041
 20
-651.8760386129
 10
1237.7609558341
 20
-660.9250089445
 10
1234.8569334933
 20
-669.9917974892
 10
1231.7276044249
 20
-679.0649801711
 10
1228.3769115568
 20
-688.1331248574
 10
1224.8090767333
 20
-697.1848057636
 10
1221.0285953959
 20
-706.2086178489
 10
1217.0402309187
 20
-715.1931911874
 10
1212.8490086068
 20
-724.1272052934
 10
1208.4602093645
 20
-732.9994033856
 10
1203.8793630414
 20
-741.7986065701
 10
1199.1122414646
 20
-750.5137279263
 10
1194.1648511665
 20
-759.1337864758
 10
1189.0434258167
 20
-767.6479210184
 10
1183.7544183673
 20
-776.0454038175
 10
1178.3044929225
 20
-784.3156541164
 10
1172.7005163416
 20
-792.4482514706
 10
1166.9495495874
 20
-800.4329488769
 10
1161.0588388287
 20
-808.2596856849
 10
1155.0358063107
 20
-815.9186002731
 10
1148.888041003
 20
-823.4000424745
 10
1142.6232890371
 20
-830.6945857361
 10
1136.2494439471
 20
-837.7930389955
 10
1129.7745367233
 20
-844.6864582625
 10
1123.2067256934
 20
-851.3661578877
 10
1116.5542862431
 20
-857.8237215067
 10
1109.8256003892
 20
-864.0510126445
 10
1103.0291462185
 20
-870.0401849675
 10
1096.1734872051
 20
-875.7836921699
 10
1089.2672614207
 20
-881.2742974816
 10
1082.3191706507
 20
-886.5050827869
 10
1075.3379694301
 20
-891.469457341
 10
1068.3324540128
 20
-896.1611660745
 10
1061.3114512883
 20
-900.5742974745
 10
1054.2838076599
 20
-904.703291033
 10
1047.2583778987
 20
-908.5429442536
 10
1040.2440139859
 20
-912.088419206
 10
1033.2495539602
 20
-915.3352486221
 10
1026.2838107814
 20
-918.2793415246
 10
1019.3555612264
 20
-920.9169883816
 10
1012.4735348303
 20
-923.2448657806
 10
1005.6464028875
 20
-925.260040616
 10
998.882767526
 20
-926.9599737847
 10
992.1911508685
 20
-928.3425233855
 10
985.5799842947
 20
-929.4059474177
 10
979.057597818
 20
-930.1489059761
 10
972.6322095896
 20
-930.5704629393
 10
966.3119155437
 20
-930.670087149
 10
960.1046791968
 20
-930.4476530797
 10
954.0183216137
 20
-929.9034409964
 10
948.0605115527
 20
-929.0381366017
 10
942.2387558037
 20
-927.8528301716
 10
936.5603897291
 20
-926.3490151822
 10
931.0325680217
 20
-924.5285864275
 10
925.6622556895
 20
-922.3938376321
 10
920.4562192801
 20
-919.9474585613
 10
916.0522343756
 20
-917.5602253977
  0
LWPOLYLINE
  5
BA
330
1F
100
AcDbEntity
  8
0
  6
Continuous
 62
     7
370
    25
100
AcDbPolyline
 90
      178
 70
   128
 43
0.0
 10
682.6884764781
 20
-688.1290737203
 10
682.8132092679
 20
-679.9427622549
 10
683.1872504751
 20
-671.6227520583
 10
683.8101288108
 20
-663.1795262721
 10
684.6810594538
 20
-654.6237232888
 10
685.7989450389
 20
-645.9661233468
 10
687.1623770398
 20
-637.2176349482
 10
688.7696375438
 20
-628.3892811134
 10
690.6187014164
 20
-619.4921854928
 10
692.7072388531
 20
-610.5375583508
 10
695.0326183144
 20
-601.5366824412
 10
697.5919098421
 20
-592.5008987905
 10
700.3818887508
 20
-583.4415924089
 10
703.3990396908
 20
-574.3701779449
 10
706.639561078
 20
-565.2980853034
 10
710.0993698828
 20
-556.2367452433
 10
713.774106776
 20
-547.1975749758
 10
717.6591416204
 20
-538.1919637781
 10
721.7495793052
 20
-529.2312586432
 10
726.0402659141
 20
-520.326749983
 10
730.5257952185
 20
-511.4896574024
 10
735.2005154899
 20
-502.7311155624
 10
740.0585366207
 20
-494.0621601508
 10
745.0937375459
 20
-485.4937139774
 10
750.2997739552
 20
-477.036573211
 10
755.6700862874
 20
-468.7013937768
 10
761.1979079949
 20
-460.4986779294
 10
766.8762740694
 20
-452.4387610209
 10
772.6980298184
 20
-444.5317984775
 10
778.6558398794
 20
-436.7877530045
 10
784.7421974626
 20
-429.2163820329
 10
790.9494338095
 20
-421.8272254255
 10
797.2697278553
 20
-414.6295934564
 10
803.6951160837
 20
-407.6325550803
 10
810.2175025604
 20
-400.8449265057
 10
816.8286691342
 20
-394.2752600867
 10
823.5202857918
 20
-387.9318335467
 10
830.2839211533
 20
-381.822639549
 10
837.111053096
 20
-375.9553756257
 10
843.9930794921
 20
-370.3374344793
 10
850.9213290472
 20
-364.9758946675
 10
857.887072226
 20
-359.8775116847
 10
864.8815322517
 20
-355.0487094497
 10
871.8958961644
 20
-350.4955722123
 10
878.9213259257
 20
-346.2238368863
 10
885.948969554
 20
-342.2388858218
 10
892.9699722785
 20
-338.5457400229
 10
899.9754876959
 20
-335.1490528219
 10
906.9566889164
 20
-332.0531040156
 10
913.9047796864
 20
-329.261794473
 10
920.8110054709
 20
-326.7786412202
 10
927.6666644843
 20
-324.6067730091
 10
934.463118655
 20
-322.7489263752
 10
941.1918045088
 20
-321.2074421892
 10
947.8442439591
 20
-319.984262708
 10
954.412054989
 20
-319.0809291275
 10
960.8869622129
 20
-318.4985796401
 10
967.2608073029
 20
-318.2379480012
 10
973.5255592687
 20
-318.2993626044
 10
979.6733245765
 20
-318.6827460679
 10
985.6963570944
 20
-319.3876153319
 10
991.5870678531
 20
-320.4130822669
 10
997.3380346074
 20
-321.7578547936
 10
1002.9420111882
 20
-323.4202385099
 10
1008.3919366331
 20
-325.3981388267
 10
1013.6809440825
 20
-327.6890636064
 10
1018.8023694323
 20
-330.2901263034
 10
1023.7497597303
 20
-333.198049601
 10
1028.5168813071
 20
-336.4091695405
 10
1033.0977276303
 20
-339.9194401385
 10
1037.4865268725
 20
-343.7244384839
 10
1041.6777491844
 20
-347.8193703114
 10
1045.6661136617
 20
-352.1990760418
 10
1049.4465949991
 20
-356.8580372834
 10
1053.0144298225
 20
-361.7903837849
 10
1056.3651226906
 20
-366.9899008318
 10
1059.494451759
 20
-372.4500370772
 10
1062.3984740999
 20
-378.163912796
 10
1065.0735306698
 20
-384.1243285536
 10
1067.5162509204
 20
-390.3237742772
 10
1069.7235570451
 20
-396.7544387183
 10
1071.692667857
 20
-403.4082192944
 10
1073.4211022934
 20
-410.2767322992
 10
1074.9066825416
 20
-417.3513234647
 10
1076.1475367832
 20
-424.6230788668
 10
1077.1421015524
 20
-432.0828361557
 10
1077.8891237063
 20
-439.7211961011
 10
1078.3876620032
 20
-447.5285344347
 10
1078.6370882891
 20
-455.495013977
 10
1078.6370882891
 20
-463.6105970319
 10
1078.3876620032
 20
-471.8650580341
 10
1077.8891237063
 20
-480.2479964333
 10
1077.1421015524
 20
-488.7488497988
 10
1076.1475367832
 20
-497.3569071281
 10
1074.9066825416
 20
-506.0613223425
 10
1073.4211022934
 20
-514.8511279532
 10
1071.692667857
 20
-523.7152488804
 10
1069.7235570451
 20
-532.6425164075
 10
1067.5162509204
 20
-541.6216822537
 10
1065.0735306698
 20
-550.6414327469
 10
1062.3984740999
 20
-559.6904030784
 10
1059.494451759
 20
-568.7571916232
 10
1056.3651226906
 20
-577.830374305
 10
1053.0144298225
 20
-586.8985189914
 10
1049.4465949991
 20
-595.9501998976
 10
1045.6661136617
 20
-604.9740119829
 10
1041.6777491844
 20
-613.9585853214
 10
1037.4865268725
 20
-622.8925994274
 10
1033.0977276303
 20
-631.7647975196
 10
1028.5168813071
 20
-640.5640007041
 10
1023.7497597303
 20
-649.2791220603
 10
1018.8023694323
 20
-657.8991806098
 10
1013.6809440825
 20
-666.4133151524
 10
1008.3919366331
 20
-674.8107979514
 10
1002.9420111882
 20
-683.0810482504
 10
997.3380346074
 20
-691.2136456046
 10
991.5870678531
 20
-699.1983430109
 10
985.6963570944
 20
-707.0250798189
 10
979.6733245765
 20
-714.6839944071
 10
973.5255592687
 20
-722.1654366085
 10
967.2608073029
 20
-729.45997987
 10
960.8869622129
 20
-736.5584331295
 10
954.412054989
 20
-743.4518523965
 10
947.8442439591
 20
-750.1315520217
 10
941.1918045088
 20
-756.5891156407
 10
934.463118655
 20
-762.8164067785
 10
927.6666644843
 20
-768.8055791015
 10
920.8110054708
 20
-774.5490863039
 10
913.9047796864
 20
-780.0396916156
 10
906.9566889164
 20
-785.2704769209
 10
899.9754876959
 20
-790.234851475
 10
892.9699722785
 20
-794.9265602085
 10
885.948969554
 20
-799.3396916084
 10
878.9213259257
 20
-803.468685167
 10
871.8958961644
 20
-807.3083383876
 10
864.8815322517
 20
-810.85381334
 10
857.887072226
 20
-814.1006427561
 10
850.9213290472
 20
-817.0447356586
 10
843.9930794921
 20
-819.6823825156
 10
837.111053096
 20
-822.0102599146
 10
830.2839211533
 20
-824.02543475
 10
823.5202857918
 20
-825.7253679187
 10
816.8286691342
 20
-827.1079175195
 10
810.2175025604
 20
-828.1713415517
 10
803.6951160837
 20
-828.9143001101
 10
797.2697278553
 20
-829.3358570732
 10
790.9494338095
 20
-829.435481283
 10
784.7421974626
 20
-829.2130472137
 10
778.6558398794
 20
-828.6688351304
 10
772.6980298184
 20
-827.8035307357
 10
766.8762740694
 20
-826.6182243056
 10
761.1979079949
 20
-825.1144093162
 10
755.6700862874
 20
-823.2939805615
 10
750.2997739552
 20
-821.1592317661
 10
745.0937375459
 20
-818.7128526953
 10
740.0585366207
 20
-815.9579257658
 10
735.2005154899
 20
-812.897922162
 10
730.5257952185
 20
-809.5366974622
 10
726.0402659141
 20
-805.8784867809
 10
721.7495793052
 20
-801.9278994322
 10
717.6591416204
 20
-797.6899131223
 10
713.774106776
 20
-793.1698676779
 10
710.0993698828
 20
-788.3734583175
 10
706.639561078
 20
-783.3067284759
 10
703.3990396908
 20
-777.9760621894
 10
700.3818887508
 20
-772.388176052
 10
697.5919098421
 20
-766.5501107523
 10
695.0326183144
 20
-760.4692222028
 10
692.7072388531
 20
-754.153172271
 10
690.6187014164
 20
-747.6099191258
 10
688.7696375438
 20
-740.8477072103
 10
687.1623770398
 20
-733.8750568537
 10
685.7989450389
 20
-726.7007535358
 10
684.6810594538
 20
-719.3338368174
 10
683.8101288108
 20
-711.7835889506
 10
683.1872504751
 20
-704.0595231832
 10
682.8132092679
 20
-696.171371772
 10
682.6884764781
 20
-688.1290737203
  0
LWPOLYLINE
  5
BB
330
1F
100
AcDbEntity
  8
0
  6
Continuous
 62
     7
370
    25
100
AcDbPolyline
 90
      161
 70
   128
 43
0.0
 10
718.6095009624
 20
-667.39230768
 10
718.7344501909
 20
-659.9726561973
 10
719.1091052139
 20
-652.4201819708
 10
719.7328883405
 20
-644.7465303684
 10
720.6048377423
 20
-636.9635336047
 10
721.7236089364
 20
-629.0831924965
 10
723.0874768589
 20
-621.1176579586
 10
724.6943385243
 20
-613.0792122681
 10
726.5417162682
 20
-604.9802501254
 10
728.6267615682
 20
-596.8332595432
 10
730.9462594355
 20
-588.6508025904
 10
733.4966333726
 20
-580.4454960227
 10
736.2739508876
 20
-572.2299918279
 10
739.2739295582
 20
-564.0169577181
 10
742.4919436349
 20
-555.8190575966
 10
745.9230311731
 20
-547.6489320312
 10
749.5619016845
 20
-539.5191787633
 10
753.4029442946
 20
-531.4423332832
 10
757.4402363941
 20
-523.4308495013
 10
761.6675527712
 20
-515.4970805447
 10
766.0783752104
 20
-507.6532597103
 10
770.6659025432
 20
-499.9114816011
 10
775.4230611349
 20
-492.283683478
 10
780.342515792
 20
-484.7816268526
 10
785.4166810718
 20
-477.4168793527
 10
790.6377329792
 20
-470.2007968851
 10
795.9976210307
 20
-463.1445061257
 10
801.4880806673
 20
-456.2588873637
 10
807.1006459983
 20
-449.5545577239
 10
812.8266628547
 20
-443.0418547969
 10
818.6573021336
 20
-436.7308206984
 10
824.5835734118
 20
-430.6311865856
 10
830.5963388085
 20
-424.7523576521
 10
836.6863270754
 20
-419.1033986262
 10
842.8441478918
 20
-413.6930197931
 10
849.0603063445
 20
-408.5295635649
 10
855.3252175677
 20
-403.6209916169
 10
861.6292215223
 20
-398.9748726111
 10
867.9625978912
 20
-394.5983705263
 10
874.3155810671
 20
-390.4982336116
 10
880.6783752104
 20
-386.6807839809
 10
887.0411693536
 20
-383.1519078647
 10
893.3941525295
 20
-379.9170465344
 10
899.7275288984
 20
-376.9811879116
 10
906.031532853
 20
-374.3488588775
 10
912.2964440762
 20
-372.0241182927
 10
918.5126025289
 20
-370.0105507386
 10
924.6704233453
 20
-368.3112609906
 10
930.7604116122
 20
-366.9288692301
 10
936.7731770089
 20
-365.8655070052
 10
942.6994482871
 20
-365.1228139432
 10
948.530087566
 20
-364.7019352232
 10
954.2561044224
 20
-364.6035198094
 10
959.8686697534
 20
-364.8277194514
 10
965.35912939
 20
-365.3741884496
 10
970.7190174415
 20
-366.2420841884
 10
975.9400693489
 20
-367.4300684354
 10
981.0142346287
 20
-368.9363094051
 10
985.9336892858
 20
-370.7584845831
 10
990.6908478775
 20
-372.8937843073
 10
995.2783752103
 20
-375.3389161003
 10
999.6891976495
 20
-378.090109746
 10
1003.9165140266
 20
-381.1431231035
 10
1007.9538061261
 20
-384.4932486472
 10
1011.7948487362
 20
-388.1353207264
 10
1015.4337192476
 20
-392.0637235301
 10
1018.8648067858
 20
-396.2723997457
 10
1022.0828208625
 20
-400.7548598996
 10
1025.0827995331
 20
-405.5041923632
 10
1027.8601170481
 20
-410.5130740101
 10
1030.4104909852
 20
-415.7737815077
 10
1032.7299888525
 20
-421.2782032264
 10
1034.8150341525
 20
-427.017851747
 10
1036.6624118964
 20
-432.9838769473
 10
1038.2692735618
 20
-439.167079649
 10
1039.6331414843
 20
-445.5579258017
 10
1040.7519126784
 20
-452.1465611839
 10
1041.6238620802
 20
-458.9228265972
 10
1042.2476452068
 20
-465.8762735317
 10
1042.6223002298
 20
-472.996180276
 10
1042.7472494583
 20
-480.2715684502
 10
1042.6223002298
 20
-487.6912199329
 10
1042.2476452068
 20
-495.2436941594
 10
1041.6238620802
 20
-502.9173457618
 10
1040.7519126784
 20
-510.7003425255
 10
1039.6331414843
 20
-518.5806836337
 10
1038.2692735618
 20
-526.5462181715
 10
1036.6624118964
 20
-534.5846638621
 10
1034.8150341525
 20
-542.6836260048
 10
1032.7299888525
 20
-550.830616587
 10
1030.4104909852
 20
-559.0130735397
 10
1027.8601170481
 20
-567.2183801075
 10
1025.0827995331
 20
-575.4338843023
 10
1022.0828208625
 20
-583.6469184121
 10
1018.8648067858
 20
-591.8448185336
 10
1015.4337192476
 20
-600.014944099
 10
1011.7948487362
 20
-608.1446973669
 10
1007.9538061261
 20
-616.221542847
 10
1003.9165140266
 20
-624.2330266289
 10
999.6891976495
 20
-632.1667955855
 10
995.2783752103
 20
-640.0106164199
 10
990.6908478775
 20
-647.7523945291
 10
985.9336892858
 20
-655.3801926522
 10
981.0142346287
 20
-662.8822492775
 10
975.9400693489
 20
-670.2469967774
 10
970.7190174415
 20
-677.4630792451
 10
965.35912939
 20
-684.5193700044
 10
959.8686697534
 20
-691.4049887665
 10
954.2561044224
 20
-698.1093184062
 10
948.530087566
 20
-704.6220213333
 10
942.6994482871
 20
-710.9330554318
 10
936.7731770089
 20
-717.0326895446
 10
930.7604116122
 20
-722.911518478
 10
924.6704233453
 20
-728.560477504
 10
918.5126025289
 20
-733.9708563371
 10
912.2964440762
 20
-739.1343125652
 10
906.031532853
 20
-744.0428845133
 10
899.7275288984
 20
-748.6890035191
 10
893.3941525295
 20
-753.0655056039
 10
887.0411693536
 20
-757.1656425186
 10
880.6783752103
 20
-760.9830921493
 10
874.3155810671
 20
-764.5119682654
 10
867.9625978912
 20
-767.7468295957
 10
861.6292215223
 20
-770.6826882186
 10
855.3252175677
 20
-773.3150172527
 10
849.0603063445
 20
-775.6397578375
 10
842.8441478918
 20
-777.6533253915
 10
836.6863270754
 20
-779.3526151396
 10
830.5963388085
 20
-780.7350069
 10
824.5835734118
 20
-781.798369125
 10
818.6573021336
 20
-782.5410621869
 10
812.8266628547
 20
-782.961940907
 10
807.1006459983
 20
-783.0603563208
 10
801.4880806673
 20
-782.8361566788
 10
795.9976210307
 20
-782.2896876806
 10
790.6377329792
 20
-781.4217919418
 10
785.4166810718
 20
-780.2338076948
 10
780.342515792
 20
-778.7275667251
 10
775.4230611349
 20
-776.9053915471
 10
770.6659025432
 20
-774.7700918229
 10
766.0783752103
 20
-772.3249600299
 10
761.6675527712
 20
-769.5737663841
 10
757.4402363941
 20
-766.5207530267
 10
753.4029442946
 20
-763.170627483
 10
749.5619016845
 20
-759.5285554037
 10
745.9230311731
 20
-755.6001526001
 10
742.4919436349
 20
-751.3914763845
 10
739.2739295582
 20
-746.9090162305
 10
736.2739508876
 20
-742.1596837669
 10
733.4966333726
 20
-737.1508021201
 10
730.9462594355
 20
-731.8900946225
 10
728.6267615682
 20
-726.3856729038
 10
726.5417162682
 20
-720.6460243832
 10
724.6943385243
 20
-714.6799991829
 10
723.0874768589
 20
-708.4967964811
 10
721.7236089364
 20
-702.1059503284
 10
720.6048377423
 20
-695.5173149463
 10
719.7328883405
 20
-688.741049533
 10
719.1091052139
 20
-681.7876025985
 10
718.7344501909
 20
-674.6676958541
 10
718.6095009624
 20
-667.39230768
  0
ARC
  5
BC
330
1F
100
AcDbEntity
  8
0
  6
Continuous
 62
     7
370
    25
100
AcDbCircle
 10
1309.7898610429
 20
-821.552725951
 30
0.0
 40
384.1343776657336
100
AcDbArc
 50
136.5579271753
 51
163.4474493574
  0
LWPOLYLINE
  5
BD
330
1F
100
AcDbEntity
  8
0
  6
Continuous
 62
     7
370
    25
100
AcDbPolyline
 90
       96
 70
   128
 43
0.0
 10
1257.0075281402
 20
-457.1570611527
 10
1260.4285700415
 20
-458.6604563304
 10
1265.6633180216
 20
-461.2754552662
 10
1270.7245158884
 20
-464.1981724191
 10
1275.605997352
 20
-467.4250469083
 10
1280.3018150791
 20
-470.9521472845
 10
1284.8062479391
 20
-474.775176319
 10
1289.1138079745
 20
-478.88947624
 10
1293.2192470868
 20
-483.2900344067
 10
1297.1175634311
 20
-487.9714894168
 10
1300.8040075091
 20
-492.9281376386
 10
1304.2740879568
 20
-498.1539401597
 10
1307.5235770155
 20
-503.6425301446
 10
1310.5485156835
 20
-509.387220592
 10
1313.3452185389
 20
-515.3810124815
 10
1315.9102782301
 20
-521.6166033008
 10
1318.2405696269
 20
-528.0863959431
 10
1320.3332536283
 20
-534.7825079627
 10
1322.1857806211
 20
-541.6967811786
 10
1323.7958935866
 20
-548.8207916138
 10
1325.1616308501
 20
-556.145859759
 10
1326.2813284712
 20
-563.6630611471
 10
1327.1536222708
 20
-571.363237226
 10
1327.7774494933
 20
-579.2370065174
 10
1328.1520501012
 20
-587.2747760462
 10
1328.2769677014
 20
-595.4667530284
 10
1328.1520501012
 20
-603.8029568019
 10
1327.7774494933
 20
-612.2732309865
 10
1327.1536222708
 20
-620.8672558578
 10
1326.2813284712
 20
-629.5745609204
 10
1325.1616308501
 20
-638.3845376643
 10
1323.7958935866
 20
-647.2864524899
 10
1322.1857806211
 20
-656.2694597852
 10
1320.3332536283
 20
-665.3226151396
 10
1318.2405696269
 20
-674.4348886777
 10
1315.9102782301
 20
-683.595178498
 10
1313.3452185389
 20
-692.7923241983
 10
1310.5485156835
 20
-702.0151204733
 10
1307.5235770155
 20
-711.2523307663
 10
1304.2740879568
 20
-720.4927009596
 10
1300.8040075091
 20
-729.7249730855
 10
1297.1175634311
 20
-738.9378990423
 10
1293.2192470868
 20
-748.1202542991
 10
1289.1138079745
 20
-757.2608515704
 10
1284.8062479391
 20
-766.3485544464
 10
1280.301815079
 20
-775.372290961
 10
1275.605997352
 20
-784.3210670812
 10
1270.7245158884
 20
-793.1839801018
 10
1265.6633180216
 20
-801.9502319286
 10
1260.4285700415
 20
-810.6091422339
 10
1255.0266496822
 20
-819.1501614695
 10
1249.4641383516
 20
-827.5628837189
 10
1243.7478131128
 20
-835.8370593761
 10
1237.8846384276
 20
-843.9626076325
 10
1231.8817576713
 20
-851.9296287593
 10
1225.7464844294
 20
-859.7284161683
 10
1219.4862935872
 20
-867.3494682385
 10
1213.1088122229
 20
-874.7834998918
 10
1206.6218103154
 20
-882.0214539058
 10
1200.033191277
 20
-889.0545119485
 10
1193.3509823252
 20
-895.874105322
 10
1186.5833247024
 20
-902.4719254022
 10
1179.7384637568
 20
-908.8399337617
 10
1172.8247388972
 20
-914.9703719632
 10
1165.8505734322
 20
-920.8557710121
 10
1158.8244643083
 20
-926.4889604562
 10
1151.7549717571
 20
-931.8630771219
 10
1144.6507088664
 20
-936.9715734759
 10
1137.520331086
 20
-941.8082256023
 10
1130.3725256831
 20
-946.3671407855
 10
1123.2160011573
 20
-950.6427646896
 10
1116.0594766316
 20
-954.6298881254
 10
1108.9116712287
 20
-958.3236533972
 10
1101.7812934483
 20
-961.7195602211
 10
1094.6770305575
 20
-964.8134712076
 10
1087.6075380063
 20
-967.6016169028
 10
1080.5814288824
 20
-970.0806003807
 10
1073.6072634175
 20
-972.2474013818
 10
1066.6935385578
 20
-974.0993799927
 10
1059.8486776123
 20
-975.6342798628
 10
1053.0810199894
 20
-976.8502309531
 10
1046.3988110377
 20
-977.7457518145
 10
1039.8101919993
 20
-978.3197513928
 10
1033.3231900917
 20
-978.5715303578
 10
1026.9457087275
 20
-978.5007819557
 10
1020.6855178853
 20
-978.1075923826
 10
1014.5502446433
 20
-977.3924406793
 10
1008.547363887
 20
-976.356198148
 10
1002.6841892019
 20
-975.0001272907
 10
996.9678639631
 20
-973.3258802708
 10
991.4053526324
 20
-971.3354969004
 10
986.0034322731
 20
-969.031402155
 10
980.7686842931
 20
-966.4164032192
 10
975.7074864263
 20
-963.4936860663
 10
970.8260049627
 20
-960.266811577
 10
967.8356010462
 20
-958.071806158
  0
LWPOLYLINE
  5
BE
330
1F
100
AcDbEntity
  8
0
  6
Continuous
 62
     7
370
    25
100
AcDbPolyline
 90
       98
 70
   128
 43
0.0
 10
1343.2712564383
 20
-463.3042757171
 10
1343.2845436523
 20
-463.3119475092
 10
1348.546573746
 20
-466.5528161292
 10
1353.6278892309
 20
-470.0934616189
 10
1358.523048907
 20
-473.9300925665
 10
1363.2268109149
 20
-478.0586006114
 10
1367.7341383482
 20
-482.4745648438
 10
1372.0402046478
 20
-487.1732565387
 10
1376.1403987702
 20
-492.1496442192
 10
1380.0303301248
 20
-497.3983990448
 10
1383.7058332756
 20
-502.9139005173
 10
1387.1629724018
 20
-508.6902424997
 10
1390.3980455122
 20
-514.7212395402
 10
1393.4075884095
 20
-521.0004334962
 10
1396.1883783999
 20
-527.5211004495
 10
1398.7374377437
 20
-534.2762579066
 10
1401.0520368443
 20
-541.2586722757
 10
1403.129697171
 20
-548.4608666126
 10
1404.9681939132
 20
-555.8751286272
 10
1406.5655583624
 20
-563.493518942
 10
1407.9200800209
 20
-571.3078795939
 10
1409.0303084328
 20
-579.3098427697
 10
1409.8950547378
 20
-587.4908397669
 10
1410.5133929439
 20
-595.8421101689
 10
1410.8846609191
 20
-604.3547112263
 10
1411.0084611003
 20
-613.0195274326
 10
1410.8846609191
 20
-621.8272802855
 10
1410.5133929439
 20
-630.7685382228
 10
1409.8950547378
 20
-639.8337267215
 10
1409.0303084328
 20
-649.0131385506
 10
1407.9200800209
 20
-658.296944166
 10
1406.5655583624
 20
-667.6752022363
 10
1404.9681939132
 20
-677.1378702876
 10
1403.129697171
 20
-686.6748154581
 10
1401.0520368443
 20
-696.2758253481
 10
1398.7374377437
 20
-705.9306189555
 10
1396.1883783999
 20
-715.6288576857
 10
1393.4075884095
 20
-725.3601564216
 10
1390.3980455122
 20
-735.1140946448
 10
1387.1629724018
 20
-744.8802275941
 10
1383.7058332756
 20
-754.6480974495
 10
1380.0303301248
 20
-764.4072445314
 10
1376.1403987702
 20
-774.1472185007
 10
1372.0402046478
 20
-783.8575895493
 10
1367.7341383482
 20
-793.5279595686
 10
1363.2268109149
 20
-803.1479732842
 10
1358.523048907
 20
-812.7073293445
 10
1353.6278892309
 20
-822.1957913515
 10
1348.546573746
 20
-831.6031988225
 10
1343.2845436523
 20
-840.91947807
 10
1337.8474336633
 20
-850.1346529887
 10
1332.2410659726
 20
-859.2388557386
 10
1326.4714440193
 20
-868.2223373113
 10
1320.5447460589
 20
-877.0754779697
 10
1314.4673185481
 20
-885.7887975491
 10
1308.2456693485
 20
-894.3529656086
 10
1301.886460758
 20
-902.7588114225
 10
1295.3965023763
 20
-910.9973338007
 10
1288.7827438134
 20
-919.0597107269
 10
1282.0522672476
 20
-926.9373088061
 10
1275.212279842
 20
-934.6216925089
 10
1268.2701060262
 20
-942.1046332047
 10
1261.2331796539
 20
-949.3781179733
 10
1254.109036042
 20
-956.434358185
 10
1246.9053039022
 20
-963.2657978409
 10
1239.629697171
 20
-969.8651216645
 10
1232.2900067505
 20
-976.2252629345
 10
1224.894092165
 20
-982.3394110522
 10
1217.4498731451
 20
-988.2010188348
 10
1209.9653211469
 20
-993.8038095258
 10
1202.4484508163
 20
-999.1417835166
 10
1194.9073114062
 20
-1004.209224771
 10
1187.3499781576
 20
-1009.0007069459
 10
1179.7845436523
 20
-1013.5110992022
 10
1172.2191091469
 20
-1017.735571699
 10
1164.6617758983
 20
-1021.6696007652
 10
1157.1206364882
 20
-1025.3089737439
 10
1149.6037661576
 20
-1028.6497935036
 10
1142.1192141594
 20
-1031.6884826105
 10
1134.6749951395
 20
-1034.4217871605
 10
1127.279080554
 20
-1036.8467802624
 10
1119.9393901335
 20
-1038.960865173
 10
1112.6637834024
 20
-1040.7617780772
 10
1105.4600512625
 20
-1042.2475905122
 10
1098.3359076507
 20
-1043.416711433
 10
1091.2989812784
 20
-1044.2678889156
 10
1084.3568074626
 20
-1044.8002114978
 10
1077.5168200569
 20
-1045.0131091552
 10
1070.7863434911
 20
-1044.9063539118
 10
1064.1725849283
 20
-1044.4800600837
 10
1057.6826265465
 20
-1043.734684157
 10
1051.323417956
 20
-1042.6710242989
 10
1045.1017687564
 20
-1041.290219503
 10
1039.0243412456
 20
-1039.5937483698
 10
1033.0976432852
 20
-1037.5834275229
 10
1027.3280213319
 20
-1035.2614096643
 10
1021.7216536412
 20
-1032.6301812689
 10
1016.2978308663
 20
-1029.7002317141
  0
LWPOLYLINE
  5
BF
330
1F
100
AcDbEntity
  8
0
  6
Continuous
 62
     7
370
    25
100
AcDbPolyline
 90
      131
 70
   128
 43
0.0
 10
1178.7451115847
 20
-422.594809248
 10
1183.0611546761
 20
-421.3873177853
 10
1190.3367614072
 20
-419.5864048811
 10
1197.5404935471
 20
-418.1005924461
 10
1204.6646371589
 20
-416.9314715253
 10
1211.7015635312
 20
-416.0802940427
 10
1218.643737347
 20
-415.5479714605
 10
1225.4837247527
 20
-415.335073803
 10
1232.2142013184
 20
-415.4418290465
 10
1238.8279598813
 20
-415.8681228746
 10
1245.3179182631
 20
-416.6134988013
 10
1251.6771268536
 20
-417.6771586594
 10
1257.8987760532
 20
-419.0579634553
 10
1263.976203564
 20
-420.7544345885
 10
1269.9029015244
 20
-422.7647554354
 10
1275.6725234777
 20
-425.086773294
 10
1281.2788911684
 20
-427.7180016894
 10
1286.7160011573
 20
-430.6556230363
 10
1291.9780312511
 20
-433.8964916563
 10
1297.059346736
 20
-437.437137146
 10
1301.9545064121
 20
-441.2737680935
 10
1306.6582684199
 20
-445.4022761385
 10
1311.1655958532
 20
-449.8182403709
 10
1315.4716621529
 20
-454.5169320658
 10
1319.5718562753
 20
-459.4933197463
 10
1323.4617876299
 20
-464.7420745719
 10
1327.1372907807
 20
-470.2575760444
 10
1330.5944299069
 20
-476.0339180268
 10
1333.8295030173
 20
-482.0649150673
 10
1336.8390459146
 20
-488.3441090233
 10
1339.619835905
 20
-494.8647759766
 10
1342.1688952487
 20
-501.6199334337
 10
1344.4834943493
 20
-508.6023478028
 10
1346.5611546761
 20
-515.8045421397
 10
1348.3996514183
 20
-523.2188041543
 10
1349.9970158675
 20
-530.8371944691
 10
1351.351537526
 20
-538.6515551209
 10
1352.4617659379
 20
-546.6535182968
 10
1353.3265122429
 20
-554.834515294
 10
1353.944850449
 20
-563.185785696
 10
1354.3161184242
 20
-571.6983867534
 10
1354.4399186053
 20
-580.3632029597
 10
1354.3161184242
 20
-589.1709558126
 10
1353.944850449
 20
-598.1122137499
 10
1353.3265122429
 20
-607.1774022486
 10
1352.4617659379
 20
-616.3568140777
 10
1351.351537526
 20
-625.6406196931
 10
1349.9970158675
 20
-635.0188777634
 10
1348.3996514183
 20
-644.4815458147
 10
1346.5611546761
 20
-654.0184909852
 10
1344.4834943493
 20
-663.6195008751
 10
1342.1688952487
 20
-673.2742944826
 10
1339.619835905
 20
-682.9725332127
 10
1336.8390459146
 20
-692.7038319487
 10
1333.8295030173
 20
-702.4577701719
 10
1330.5944299069
 20
-712.2239031212
 10
1327.1372907807
 20
-721.9917729766
 10
1323.4617876299
 20
-731.7509200585
 10
1319.5718562753
 20
-741.4908940278
 10
1315.4716621529
 20
-751.2012650764
 10
1311.1655958532
 20
-760.8716350957
 10
1306.6582684199
 20
-770.4916488113
 10
1301.9545064121
 20
-780.0510048716
 10
1297.059346736
 20
-789.5394668786
 10
1291.9780312511
 20
-798.9468743496
 10
1286.7160011573
 20
-808.2631535971
 10
1281.2788911684
 20
-817.4783285158
 10
1275.6725234777
 20
-826.5825312657
 10
1269.9029015244
 20
-835.5660128384
 10
1263.976203564
 20
-844.4191534968
 10
1257.8987760532
 20
-853.1324730762
 10
1251.6771268536
 20
-861.6966411357
 10
1245.3179182631
 20
-870.1024869496
 10
1238.8279598813
 20
-878.3410093278
 10
1232.2142013184
 20
-886.403386254
 10
1225.4837247527
 20
-894.2809843332
 10
1218.643737347
 20
-901.965368036
 10
1211.7015635312
 20
-909.4483087318
 10
1204.6646371589
 20
-916.7217935004
 10
1197.5404935471
 20
-923.7780337121
 10
1190.3367614072
 20
-930.609473368
 10
1183.0611546761
 20
-937.2087971916
 10
1175.7214642556
 20
-943.5689384616
 10
1168.3255496701
 20
-949.6830865793
 10
1160.8813306502
 20
-955.5446943619
 10
1153.396778652
 20
-961.1474850529
 10
1145.8799083214
 20
-966.4854590437
 10
1138.3387689113
 20
-971.5529002981
 10
1130.7814356627
 20
-976.344382473
 10
1123.2160011573
 20
-980.8547747293
 10
1115.650566652
 20
-985.0792472261
 10
1108.0932334034
 20
-989.0132762922
 10
1100.5520939933
 20
-992.652649271
 10
1093.0352236626
 20
-995.9934690306
 10
1085.5506716645
 20
-999.0321581376
 10
1078.1064526446
 20
-1001.7654626876
 10
1070.7105380591
 20
-1004.1904557895
 10
1063.3708476386
 20
-1006.3045407001
 10
1056.0952409074
 20
-1008.1054536043
 10
1048.8915087675
 20
-1009.5912660393
 10
1041.7673651557
 20
-1010.7603869601
 10
1034.7304387834
 20
-1011.6115644427
 10
1027.7882649676
 20
-1012.1438870249
 10
1020.948277562
 20
-1012.3567846823
 10
1014.2178009962
 20
-1012.2500294389
 10
1007.6040424333
 20
-1011.8237356108
 10
1001.1140840516
 20
-1011.0783596841
 10
994.754875461
 20
-1010.014699826
 10
988.5332262615
 20
-1008.6338950301
 10
982.4557987507
 20
-1006.9374238968
 10
976.5291007903
 20
-1004.92710305
 10
970.7594788369
 20
-1002.6050851914
 10
965.1531111463
 20
-999.973856796
 10
959.7160011573
 20
-997.0362354491
 10
954.4539710636
 20
-993.7953668291
 10
949.3726555787
 20
-990.2547213394
 10
944.4774959025
 20
-986.4180903918
 10
939.7737338947
 20
-982.2895823469
 10
935.2664064614
 20
-977.8736181145
 10
930.9603401618
 20
-973.1749264196
 10
926.8601460394
 20
-968.1985387391
 10
922.9702146848
 20
-962.9497839135
 10
919.294711534
 20
-957.4342824409
 10
915.8375724078
 20
-951.6579404586
 10
912.6024992974
 20
-945.626943418
 10
909.5929564
 20
-939.347749462
 10
906.8121664097
 20
-932.8270825087
 10
904.2631070659
 20
-926.0719250517
 10
901.9485079653
 20
-919.0895106826
 10
899.8708476386
 20
-911.8873163457
 10
898.7678664466
 20
-907.5821721811
  0
ENDSEC
  0
SECTION
  2
OBJECTS
  0
DICTIONARY
  5
C
330
0
100
AcDbDictionary
281
     1
  3
ACAD_GROUP
350
D
  3
ACAD_LAYOUT
350
1A
  3
ACAD_MLINESTYLE
350
17
  3
ACAD_PLOTSETTINGS
350
19
  3
ACAD_PLOTSTYLENAME
350
E
  3
ACAD_SCALELIST
350
47
  0
DICTIONARY
  5
D
102
{ACAD_REACTORS
330
C
102
}
330
C
100
AcDbDictionary
281
     1
  0
DICTIONARY
  5
1A
102
{ACAD_REACTORS
330
C
102
}
330
C
100
AcDbDictionary
281
     1
  3
Layout1
350
1E
  3
Layout2
350
26
  3
Model
350
22
  0
DICTIONARY
  5
17
102
{ACAD_REACTORS
330
C
102
}
330
C
100
AcDbDictionary
281
     1
  3
Standard
350
18
  0
DICTIONARY
  5
19
102
{ACAD_REACTORS
330
C
102
}
330
C
100
AcDbDictionary
281
     1
  0
ACDBDICTIONARYWDFLT
  5
E
102
{ACAD_REACTORS
330
C
102
}
330
C
100
AcDbDictionary
281
     1
  3
Normal
350
F
100
AcDbDictionaryWithDefault
340
F
  0
DICTIONARY
  5
47
102
{ACAD_REACTORS
330
C
102
}
330
C
100
AcDbDictionary
281
     1
  3
A0
350
48
  3
A1
350
49
  3
A2
350
4A
  3
A3
350
4B
  3
A4
350
4C
  3
A5
350
4D
  3
A6
350
4E
  3
A7
350
4F
  3
A8
350
50
  3
A9
350
51
  3
B0
350
52
  3
B1
350
53
  3
B2
350
54
  3
B3
350
55
  3
B4
350
56
  3
B5
350
57
  3
B6
350
58
  3
B7
350
59
  3
B8
350
5A
  3
B9
350
5B
  3
C0
350
5C
  3
C1
350
5D
  3
C2
350
5E
  3
C3
350
5F
  3
C4
350
60
  3
C5
350
61
  3
C6
350
62
  3
C7
350
63
  3
C8
350
64
  3
C9
350
65
  3
D0
350
66
  3
D1
350
67
  3
D2
350
68
  0
LAYOUT
  5
1E
102
{ACAD_REACTORS
330
1A
102
}
330
1A
100
AcDbPlotSettings
  1

  2
none_device
  4

  6

 40
0.0
 41
0.0
 42
0.0
 43
0.0
 44
0.0
 45
0.0
 46
0.0
 47
0.0
 48
0.0
 49
0.0
140
0.0
141
0.0
142
1.0
143
1.0
 70
   688
 72
     1
 73
     0
 74
     5
  7

 75
    16
147
1.0
148
0.0
149
0.0
100
AcDbLayout
  1
Layout1
 70
     1
 71
     1
 10
0.0
 20
0.0
 11
420.0
 21
297.0
 12
0.0
 22
0.0
 32
0.0
 14
1.0000000000E+20
 24
1.0000000000E+20
 34
1.0000000000E+20
 15
-1.0000000000E+20
 25
-1.0000000000E+20
 35
-1.0000000000E+20
146
0.0
 13
0.0
 23
0.0
 33
0.0
 16
1.0
 26
0.0
 36
0.0
 17
0.0
 27
1.0
 37
0.0
 76
     0
330
1B
  0
LAYOUT
  5
26
102
{ACAD_REACTORS
330
1A
102
}
330
1A
100
AcDbPlotSettings
  1

  2
none_device
  4

  6

 40
0.0
 41
0.0
 42
0.0
 43
0.0
 44
0.0
 45
0.0
 46
0.0
 47
0.0
 48
0.0
 49
0.0
140
0.0
141
0.0
142
1.0
143
1.0
 70
   688
 72
     1
 73
     0
 74
     5
  7

 75
    16
147
1.0
148
0.0
149
0.0
100
AcDbLayout
  1
Layout2
 70
     1
 71
     2
 10
0.0
 20
0.0
 11
0.0
 21
0.0
 12
0.0
 22
0.0
 32
0.0
 14
0.0
 24
0.0
 34
0.0
 15
0.0
 25
0.0
 35
0.0
146
0.0
 13
0.0
 23
0.0
 33
0.0
 16
1.0
 26
0.0
 36
0.0
 17
0.0
 27
1.0
 37
0.0
 76
     0
330
23
  0
LAYOUT
  5
22
102
{ACAD_REACTORS
330
1A
102
}
330
1A
100
AcDbPlotSettings
  1

  2
none_device
  4
Letter_(8.50_x_11.00_Inches)
  6

 40
6.35
 41
6.35
 42
6.35000508
 43
6.35000508
 44
215.9
 45
279.4
 46
0.0
 47
0.0
 48
0.0
 49
0.0
140
0.0
141
0.0
142
1.0
143
1.0
 70
  1712
 72
     1
 73
     0
 74
     0
  7

 75
     0
147
1.0
148
0.0
149
0.0
100
AcDbLayout
  1
Model
 70
     1
 71
     0
 10
0.0
 20
0.0
 11
279.4
 21
215.9
 12
0.0
 22
0.0
 32
0.0
 14
0.0
 24
0.0
 34
0.0
 15
279.4
 25
215.9
 35
0.0
146
0.0
 13
0.0
 23
0.0
 33
0.0
 16
1.0
 26
0.0
 36
0.0
 17
0.0
 27
1.0
 37
0.0
 76
     0
330
1F
331
29
  0
MLINESTYLE
  5
18
102
{ACAD_REACTORS
330
17
102
}
330
17
100
AcDbMlineStyle
  2
Standard
 70
     0
  3

 62
   256
 51
90.0
 52
90.0
 71
     2
 49
0.5
 62
   256
  6
BYLAYER
 49
-0.5
 62
   256
  6
BYLAYER
  0
ACDBPLACEHOLDER
  5
F
102
{ACAD_REACTORS
330
E
102
}
330
E
  0
SCALE
  5
48
102
{ACAD_REACTORS
330
47
102
}
330
47
100
AcDbScale
 70
     0
300
1:1
140
1.0
141
1.0
290
     1
  0
SCALE
  5
49
102
{ACAD_REACTORS
330
47
102
}
330
47
100
AcDbScale
 70
     0
300
1:2
140
1.0
141
2.0
290
     0
  0
SCALE
  5
4A
102
{ACAD_REACTORS
330
47
102
}
330
47
100
AcDbScale
 70
     0
300
1:4
140
1.0
141
4.0
290
     0
  0
SCALE
  5
4B
102
{ACAD_REACTORS
330
47
102
}
330
47
100
AcDbScale
 70
     0
300
1:5
140
1.0
141
5.0
290
     0
  0
SCALE
  5
4C
102
{ACAD_REACTORS
330
47
102
}
330
47
100
AcDbScale
 70
     0
300
1:8
140
1.0
141
8.0
290
     0
  0
SCALE
  5
4D
102
{ACAD_REACTORS
330
47
102
}
330
47
100
AcDbScale
 70
     0
300
1:10
140
1.0
141
10.0
290
     0
  0
SCALE
  5
4E
102
{ACAD_REACTORS
330
47
102
}
330
47
100
AcDbScale
 70
     0
300
1:16
140
1.0
141
16.0
290
     0
  0
SCALE
  5
4F
102
{ACAD_REACTORS
330
47
102
}
330
47
100
AcDbScale
 70
     0
300
1:20
140
1.0
141
20.0
290
     0
  0
SCALE
  5
50
102
{ACAD_REACTORS
330
47
102
}
330
47
100
AcDbScale
 70
     0
300
1:30
140
1.0
141
30.0
290
     0
  0
SCALE
  5
51
102
{ACAD_REACTORS
330
47
102
}
330
47
100
AcDbScale
 70
     0
300
1:40
140
1.0
141
40.0
290
     0
  0
SCALE
  5
52
102
{ACAD_REACTORS
330
47
102
}
330
47
100
AcDbScale
 70
     0
300
1:50
140
1.0
141
50.0
290
     0
  0
SCALE
  5
53
102
{ACAD_REACTORS
330
47
102
}
330
47
100
AcDbScale
 70
     0
300
1:100
140
1.0
141
100.0
290
     0
  0
SCALE
  5
54
102
{ACAD_REACTORS
330
47
102
}
330
47
100
AcDbScale
 70
     0
300
2:1
140
2.0
141
1.0
290
     0
  0
SCALE
  5
55
102
{ACAD_REACTORS
330
47
102
}
330
47
100
AcDbScale
 70
     0
300
4:1
140
4.0
141
1.0
290
     0
  0
SCALE
  5
56
102
{ACAD_REACTORS
330
47
102
}
330
47
100
AcDbScale
 70
     0
300
8:1
140
8.0
141
1.0
290
     0
  0
SCALE
  5
57
102
{ACAD_REACTORS
330
47
102
}
330
47
100
AcDbScale
 70
     0
300
10:1
140
10.0
141
1.0
290
     0
  0
SCALE
  5
58
102
{ACAD_REACTORS
330
47
102
}
330
47
100
AcDbScale
 70
     0
300
100:1
140
100.0
141
1.0
290
     0
  0
SCALE
  5
59
102
{ACAD_REACTORS
330
47
102
}
330
47
100
AcDbScale
 70
     0
300
1/128" = 1'-0"
140
0.0078125
141
12.0
290
     0
  0
SCALE
  5
5A
102
{ACAD_REACTORS
330
47
102
}
330
47
100
AcDbScale
 70
     0
300
1/64" = 1'-0"
140
0.015625
141
12.0
290
     0
  0
SCALE
  5
5B
102
{ACAD_REACTORS
330
47
102
}
330
47
100
AcDbScale
 70
     0
300
1/32" = 1'-0"
140
0.03125
141
12.0
290
     0
  0
SCALE
  5
5C
102
{ACAD_REACTORS
330
47
102
}
330
47
100
AcDbScale
 70
     0
300
1/16" = 1'-0"
140
0.0625
141
12.0
290
     0
  0
SCALE
  5
5D
102
{ACAD_REACTORS
330
47
102
}
330
47
100
AcDbScale
 70
     0
300
3/32" = 1'-0"
140
0.09375
141
12.0
290
     0
  0
SCALE
  5
5E
102
{ACAD_REACTORS
330
47
102
}
330
47
100
AcDbScale
 70
     0
300
1/8" = 1'-0"
140
0.125
141
12.0
290
     0
  0
SCALE
  5
5F
102
{ACAD_REACTORS
330
47
102
}
330
47
100
AcDbScale
 70
     0
300
3/16" = 1'-0"
140
0.1875
141
12.0
290
     0
  0
SCALE
  5
60
102
{ACAD_REACTORS
330
47
102
}
330
47
100
AcDbScale
 70
     0
300
1/4" = 1'-0"
140
0.25
141
12.0
290
     0
  0
SCALE
  5
61
102
{ACAD_REACTORS
330
47
102
}
330
47
100
AcDbScale
 70
     0
300
3/8" = 1'-0"
140
0.375
141
12.0
290
     0
  0
SCALE
  5
62
102
{ACAD_REACTORS
330
47
102
}
330
47
100
AcDbScale
 70
     0
300
1/2" = 1'-0"
140
0.5
141
12.0
290
     0
  0
SCALE
  5
63
102
{ACAD_REACTORS
330
47
102
}
330
47
100
AcDbScale
 70
     0
300
3/4" = 1'-0"
140
0.75
141
12.0
290
     0
  0
SCALE
  5
64
102
{ACAD_REACTORS
330
47
102
}
330
47
100
AcDbScale
 70
     0
300
1" = 1'-0"
140
1.0
141
12.0
290
     0
  0
SCALE
  5
65
102
{ACAD_REACTORS
330
47
102
}
330
47
100
AcDbScale
 70
     0
300
1-1/2" = 1'-0"
140
1.5
141
12.0
290
     0
  0
SCALE
  5
66
102
{ACAD_REACTORS
330
47
102
}
330
47
100
AcDbScale
 70
     0
300
3" = 1'-0"
140
3.0
141
12.0
290
     0
  0
SCALE
  5
67
102
{ACAD_REACTORS
330
47
102
}
330
47
100
AcDbScale
 70
     0
300
6" = 1'-0"
140
6.0
141
12.0
290
     0
  0
SCALE
  5
68
102
{ACAD_REACTORS
330
47
102
}
330
47
100
AcDbScale
 70
     0
300
1'-0" = 1'-0"
140
12.0
141
12.0
290
     0
  0
ENDSEC
  0
EOF
